ISO-10303-21;
HEADER;
FILE_DESCRIPTION (( 'STEP AP203' ),
    '1' );
FILE_NAME ('Q-QZWP-R4-12.7-266-M.STEP',
    '2020-12-23T01:23:34',
    ( '' ),
    ( '' ),
    'SwSTEP 2.0',
    'SolidWorks 2020',
    '' );
FILE_SCHEMA (( 'CONFIG_CONTROL_DESIGN' ));
ENDSEC;

DATA;
#1 = APPROVAL_ROLE ( '' ) ;
#2 = APPLICATION_PROTOCOL_DEFINITION ( 'international standard', 'config_control_design', 1994, #270 ) ;
#3 = AXIS2_PLACEMENT_3D ( 'NONE', #312, #263, #82 ) ;
#4 = LINE ( 'NONE', #260, #115 ) ;
#5 = EDGE_CURVE ( 'NONE', #166, #323, #62, .T. ) ;
#6 = DIRECTION ( 'NONE',  ( 0.000000000000000000, 0.000000000000000000, 1.000000000000000000 ) ) ;
#7 = AXIS2_PLACEMENT_3D ( 'NONE', #158, #247, #169 ) ;
#8 = DIRECTION ( 'NONE',  ( -1.000000000000000000, -0.000000000000000000, -0.000000000000000000 ) ) ;
#9 = EDGE_CURVE ( 'NONE', #202, #13, #29, .T. ) ;
#10 = ORIENTED_EDGE ( 'NONE', *, *, #322, .T. ) ;
#11 = ORIENTED_EDGE ( 'NONE', *, *, #170, .T. ) ;
#12 = CC_DESIGN_DATE_AND_TIME_ASSIGNMENT ( #230, #304, ( #191 ) ) ;
#13 = VERTEX_POINT ( 'NONE', #255 ) ;
#14 = DIRECTION ( 'NONE',  ( 1.000000000000000000, 0.000000000000000000, 0.000000000000000000 ) ) ;
#15 = AXIS2_PLACEMENT_3D ( 'NONE', #145, #219, #47 ) ;
#16 = ORIENTED_EDGE ( 'NONE', *, *, #9, .F. ) ;
#17 = APPROVAL_PERSON_ORGANIZATION ( #66, #39, #204 ) ;
#18 = CARTESIAN_POINT ( 'NONE',  ( -1.614212418857619014, 1.555301434917138433E-15, -12.69999999999999929 ) ) ;
#19 = DIRECTION ( 'NONE',  ( -1.000000000000000000, -0.000000000000000000, -0.000000000000000000 ) ) ;
#20 = CARTESIAN_POINT ( 'NONE',  ( 3.000000000000000000, 0.000000000000000000, 0.000000000000000000 ) ) ;
#21 = AXIS2_PLACEMENT_3D ( 'NONE', #187, #52, #35 ) ;
#22 = PLANE ( 'NONE',  #113 ) ;
#23 = PRODUCT_DEFINITION_SHAPE ( 'NONE', 'NONE',  #191 ) ;
#24 = CALENDAR_DATE ( 2020, 23, 12 ) ;
#25 = DIRECTION ( 'NONE',  ( 0.000000000000000000, 0.000000000000000000, 1.000000000000000000 ) ) ;
#26 = CARTESIAN_POINT ( 'NONE',  ( 1.500000000000000888, 0.000000000000000000, 0.000000000000000000 ) ) ;
#27 = EDGE_LOOP ( 'NONE', ( #149, #118, #321, #281 ) ) ;
#28 = CARTESIAN_POINT ( 'NONE',  ( 3.000000000000000000, 0.000000000000000000, 12.69999999999999929 ) ) ;
#29 = CIRCLE ( 'NONE', #252, 6.349999999999999645 ) ;
#30 = ADVANCED_FACE ( 'NONE', ( #335 ), #22, .F. ) ;
#31 = CARTESIAN_POINT ( 'NONE',  ( -1.500000000000000444, 0.000000000000000000, 0.000000000000000000 ) ) ;
#32 = LINE ( 'NONE', #144, #168 ) ;
#33 = CARTESIAN_POINT ( 'NONE',  ( 1.500000000000000888, 7.776507174585692163E-16, -6.349999999999999645 ) ) ;
#34 = LINE ( 'NONE', #183, #185 ) ;
#35 = DIRECTION ( 'NONE',  ( 0.000000000000000000, 0.000000000000000000, 1.000000000000000000 ) ) ;
#36 = PRODUCT_DEFINITION_FORMATION_WITH_SPECIFIED_SOURCE ( 'ANY', '', #285, .NOT_KNOWN. ) ;
#37 = PERSON ( 'UNSPECIFIED', 'UNSPECIFIED', 'UNSPECIFIED', ('UNSPECIFIED'), ('UNSPECIFIED'), ('UNSPECIFIED') ) ;
#38 = CYLINDRICAL_SURFACE ( 'NONE', #91, 12.69999999999999929 ) ;
#39 = APPROVAL ( #107, 'UNSPECIFIED' ) ;
#40 = AXIS2_PLACEMENT_3D ( 'NONE', #57, #110, #111 ) ;
#41 = APPLICATION_CONTEXT ( 'configuration controlled 3d designs of mechanical parts and assemblies' ) ;
#42 = EDGE_CURVE ( 'NONE', #142, #190, #46, .T. ) ;
#43 = CARTESIAN_POINT ( 'NONE',  ( -1.614212418857619014, 0.000000000000000000, 0.000000000000000000 ) ) ;
#44 = AXIS2_PLACEMENT_3D ( 'NONE', #31, #286, #133 ) ;
#45 = CALENDAR_DATE ( 2020, 23, 12 ) ;
#46 = LINE ( 'NONE', #228, #233 ) ;
#47 = DIRECTION ( 'NONE',  ( -0.000000000000000000, 0.000000000000000000, 1.000000000000000000 ) ) ;
#48 = DATE_TIME_ROLE ( 'classification_date' ) ;
#49 = EDGE_LOOP ( 'NONE', ( #298, #305, #98, #294 ) ) ;
#50 = PERSON_AND_ORGANIZATION ( #37, #58 ) ;
#51 = LOCAL_TIME ( 9, 23, 34.00000000000000000, #218 ) ;
#52 = DIRECTION ( 'NONE',  ( -1.000000000000000000, -0.000000000000000000, -0.000000000000000000 ) ) ;
#53 = SECURITY_CLASSIFICATION_LEVEL ( 'unclassified' ) ;
#54 = FACE_OUTER_BOUND ( 'NONE', #306, .T. ) ;
#55 = CARTESIAN_POINT ( 'NONE',  ( -3.000000000000000000, 0.000000000000000000, 0.000000000000000000 ) ) ;
#56 = FACE_BOUND ( 'NONE', #324, .T. ) ;
#57 = CARTESIAN_POINT ( 'NONE',  ( 3.000000000000000888, 0.000000000000000000, 0.000000000000000000 ) ) ;
#58 = ORGANIZATION ( 'UNSPECIFIED', 'UNSPECIFIED', '' ) ;
#59 = EDGE_CURVE ( 'NONE', #251, #61, #240, .T. ) ;
#60 = EDGE_LOOP ( 'NONE', ( #293, #256 ) ) ;
#61 = VERTEX_POINT ( 'NONE', #122 ) ;
#62 = CIRCLE ( 'NONE', #164, 12.69999999999999929 ) ;
#63 = EDGE_LOOP ( 'NONE', ( #76, #89, #193, #269 ) ) ;
#64 = AXIS2_PLACEMENT_3D ( 'NONE', #186, #157, #287 ) ;
#65 = CIRCLE ( 'NONE', #3, 6.349999999999999645 ) ;
#66 = PERSON_AND_ORGANIZATION ( #37, #58 ) ;
#67 = ADVANCED_FACE ( 'NONE', ( #276, #147 ), #328, .F. ) ;
#68 = DIRECTION ( 'NONE',  ( 0.000000000000000000, 0.000000000000000000, 1.000000000000000000 ) ) ;
#69 = AXIS2_PLACEMENT_3D ( 'NONE', #314, #232, #135 ) ;
#70 = FACE_OUTER_BOUND ( 'NONE', #175, .T. ) ;
#71 = SHAPE_DEFINITION_REPRESENTATION ( #23, #216 ) ;
#72 = CC_DESIGN_PERSON_AND_ORGANIZATION_ASSIGNMENT ( #231, #194, ( #285 ) ) ;
#73 = EDGE_LOOP ( 'NONE', ( #220, #10, #253, #241 ) ) ;
#74 = ORIENTED_EDGE ( 'NONE', *, *, #282, .F. ) ;
#75 = APPROVAL_DATE_TIME ( #156, #84 ) ;
#76 = ORIENTED_EDGE ( 'NONE', *, *, #282, .T. ) ;
#77 = VERTEX_POINT ( 'NONE', #327 ) ;
#78 = ORIENTED_EDGE ( 'NONE', *, *, #143, .T. ) ;
#79 = APPROVAL_STATUS ( 'not_yet_approved' ) ;
#80 = COORDINATED_UNIVERSAL_TIME_OFFSET ( 8, 0, .AHEAD. ) ;
#81 = CARTESIAN_POINT ( 'NONE',  ( -1.500000000000000444, 7.776507174585692163E-16, -6.349999999999999645 ) ) ;
#82 = DIRECTION ( 'NONE',  ( 0.000000000000000000, 0.000000000000000000, 1.000000000000000000 ) ) ;
#83 = CARTESIAN_POINT ( 'NONE',  ( 3.000000000000000888, 7.776507174585692163E-16, -6.349999999999999645 ) ) ;
#84 = APPROVAL ( #79, 'UNSPECIFIED' ) ;
#85 = CARTESIAN_POINT ( 'NONE',  ( -1.614212418857619014, 0.000000000000000000, 0.000000000000000000 ) ) ;
#86 = DIRECTION ( 'NONE',  ( 0.000000000000000000, 0.000000000000000000, 1.000000000000000000 ) ) ;
#87 = CARTESIAN_POINT ( 'NONE',  ( -1.614212418857619014, 0.000000000000000000, 0.000000000000000000 ) ) ;
#88 = EDGE_CURVE ( 'NONE', #180, #77, #163, .T. ) ;
#89 = ORIENTED_EDGE ( 'NONE', *, *, #112, .T. ) ;
#90 = AXIS2_PLACEMENT_3D ( 'NONE', #55, #209, #86 ) ;
#91 = AXIS2_PLACEMENT_3D ( 'NONE', #87, #141, #25 ) ;
#92 = ORIENTED_EDGE ( 'NONE', *, *, #257, .T. ) ;
#93 = ORIENTED_EDGE ( 'NONE', *, *, #9, .T. ) ;
#94 = FACE_OUTER_BOUND ( 'NONE', #151, .T. ) ;
#95 = DIRECTION ( 'NONE',  ( 0.000000000000000000, 0.000000000000000000, 1.000000000000000000 ) ) ;
#96 = APPROVAL_PERSON_ORGANIZATION ( #99, #296, #1 ) ;
#97 = EDGE_LOOP ( 'NONE', ( #292, #167 ) ) ;
#98 = ORIENTED_EDGE ( 'NONE', *, *, #250, .T. ) ;
#99 = PERSON_AND_ORGANIZATION ( #37, #58 ) ;
#100 = DIRECTION ( 'NONE',  ( -1.000000000000000000, -0.000000000000000000, -0.000000000000000000 ) ) ;
#101 = CYLINDRICAL_SURFACE ( 'NONE', #139, 12.69999999999999929 ) ;
#102 = ADVANCED_FACE ( 'NONE', ( #172 ), #101, .T. ) ;
#103 = APPROVAL_STATUS ( 'not_yet_approved' ) ;
#104 = DIRECTION ( 'NONE',  ( -1.000000000000000000, -0.000000000000000000, -0.000000000000000000 ) ) ;
#105 = PERSON_AND_ORGANIZATION ( #37, #58 ) ;
#106 = AXIS2_PLACEMENT_3D ( 'NONE', #307, #19, #68 ) ;
#107 = APPROVAL_STATUS ( 'not_yet_approved' ) ;
#108 = CYLINDRICAL_SURFACE ( 'NONE', #69, 6.349999999999999645 ) ;
#109 = LOCAL_TIME ( 9, 23, 34.00000000000000000, #279 ) ;
#110 = DIRECTION ( 'NONE',  ( -1.000000000000000000, -0.000000000000000000, -0.000000000000000000 ) ) ;
#111 = DIRECTION ( 'NONE',  ( 0.000000000000000000, 0.000000000000000000, 1.000000000000000000 ) ) ;
#112 = EDGE_CURVE ( 'NONE', #166, #61, #330, .T. ) ;
#113 = AXIS2_PLACEMENT_3D ( 'NONE', #129, #277, #301 ) ;
#114 = DIRECTION ( 'NONE',  ( 1.000000000000000000, 0.000000000000000000, 0.000000000000000000 ) ) ;
#115 = VECTOR ( 'NONE', #161, 1000.000000000000000 ) ;
#116 = CARTESIAN_POINT ( 'NONE',  ( 3.000000000000000000, 0.000000000000000000, 0.000000000000000000 ) ) ;
#117 = ORIENTED_EDGE ( 'NONE', *, *, #5, .F. ) ;
#118 = ORIENTED_EDGE ( 'NONE', *, *, #5, .T. ) ;
#119 = DIRECTION ( 'NONE',  ( 0.000000000000000000, 0.000000000000000000, -1.000000000000000000 ) ) ;
#120 = PERSON_AND_ORGANIZATION_ROLE ( 'creator' ) ;
#121 = CC_DESIGN_SECURITY_CLASSIFICATION ( #302, ( #36 ) ) ;
#122 = CARTESIAN_POINT ( 'NONE',  ( -3.000000000000000000, 1.555301434917138433E-15, -12.69999999999999929 ) ) ;
#123 = ADVANCED_FACE ( 'NONE', ( #70 ), #221, .F. ) ;
#124 = DIRECTION ( 'NONE',  ( -1.000000000000000000, -0.000000000000000000, -0.000000000000000000 ) ) ;
#125 = CALENDAR_DATE ( 2020, 23, 12 ) ;
#126 = DIRECTION ( 'NONE',  ( -1.000000000000000000, -0.000000000000000000, -0.000000000000000000 ) ) ;
#127 = ORIENTED_EDGE ( 'NONE', *, *, #271, .F. ) ;
#128 = DIRECTION ( 'NONE',  ( 0.000000000000000000, 0.000000000000000000, 1.000000000000000000 ) ) ;
#129 = CARTESIAN_POINT ( 'NONE',  ( 1.500000000000000444, 6.349999999999999645, 0.000000000000000000 ) ) ;
#130 = ORIENTED_EDGE ( 'NONE', *, *, #59, .T. ) ;
#131 = ADVANCED_FACE ( 'NONE', ( #54 ), #108, .F. ) ;
#132 = DIRECTION ( 'NONE',  ( -1.000000000000000000, -0.000000000000000000, -0.000000000000000000 ) ) ;
#133 = DIRECTION ( 'NONE',  ( 0.000000000000000000, 0.000000000000000000, -1.000000000000000000 ) ) ;
#134 = LOCAL_TIME ( 9, 23, 34.00000000000000000, #153 ) ;
#135 = DIRECTION ( 'NONE',  ( 0.000000000000000000, 0.000000000000000000, 1.000000000000000000 ) ) ;
#136 = DIRECTION ( 'NONE',  ( 0.000000000000000000, 0.000000000000000000, -1.000000000000000000 ) ) ;
#137 = LINE ( 'NONE', #238, #225 ) ;
#138 = CC_DESIGN_PERSON_AND_ORGANIZATION_ASSIGNMENT ( #203, #227, ( #302 ) ) ;
#139 = AXIS2_PLACEMENT_3D ( 'NONE', #43, #126, #248 ) ;
#140 = DIRECTION ( 'NONE',  ( -1.000000000000000000, -0.000000000000000000, -0.000000000000000000 ) ) ;
#141 = DIRECTION ( 'NONE',  ( -1.000000000000000000, -0.000000000000000000, -0.000000000000000000 ) ) ;
#142 = VERTEX_POINT ( 'NONE', #83 ) ;
#143 = EDGE_CURVE ( 'NONE', #77, #180, #329, .T. ) ;
#144 = CARTESIAN_POINT ( 'NONE',  ( -1.614212418857619014, 7.776507174585692163E-16, -6.349999999999999645 ) ) ;
#145 = CARTESIAN_POINT ( 'NONE',  ( 3.000000000000000000, 12.69999999999999929, 0.000000000000000000 ) ) ;
#146 = PERSON_AND_ORGANIZATION ( #37, #58 ) ;
#147 = FACE_BOUND ( 'NONE', #97, .T. ) ;
#148 = DATE_AND_TIME ( #24, #332 ) ;
#149 = ORIENTED_EDGE ( 'NONE', *, *, #112, .F. ) ;
#150 = ORIENTED_EDGE ( 'NONE', *, *, #143, .F. ) ;
#151 = EDGE_LOOP ( 'NONE', ( #325, #16 ) ) ;
#152 = CC_DESIGN_DATE_AND_TIME_ASSIGNMENT ( #309, #48, ( #302 ) ) ;
#153 = COORDINATED_UNIVERSAL_TIME_OFFSET ( 8, 0, .AHEAD. ) ;
#154 = APPLICATION_PROTOCOL_DEFINITION ( 'international standard', 'config_control_design', 1994, #41 ) ;
#155 = CYLINDRICAL_SURFACE ( 'NONE', #64, 6.349999999999999645 ) ;
#156 = DATE_AND_TIME ( #125, #134 ) ;
#157 = DIRECTION ( 'NONE',  ( -1.000000000000000000, -0.000000000000000000, -0.000000000000000000 ) ) ;
#158 = CARTESIAN_POINT ( 'NONE',  ( 0.000000000000000000, 0.000000000000000000, 0.000000000000000000 ) ) ;
#159 = EDGE_CURVE ( 'NONE', #13, #202, #224, .T. ) ;
#160 = FACE_OUTER_BOUND ( 'NONE', #73, .T. ) ;
#161 = DIRECTION ( 'NONE',  ( -1.000000000000000000, -0.000000000000000000, -0.000000000000000000 ) ) ;
#162 = DIRECTION ( 'NONE',  ( -1.000000000000000000, -0.000000000000000000, -0.000000000000000000 ) ) ;
#163 = CIRCLE ( 'NONE', #106, 6.349999999999999645 ) ;
#164 = AXIS2_PLACEMENT_3D ( 'NONE', #20, #176, #128 ) ;
#165 = DESIGN_CONTEXT ( 'detailed design', #270, 'design' ) ;
#166 = VERTEX_POINT ( 'NONE', #259 ) ;
#167 = ORIENTED_EDGE ( 'NONE', *, *, #222, .T. ) ;
#168 = VECTOR ( 'NONE', #100, 1000.000000000000000 ) ;
#169 = DIRECTION ( 'NONE',  ( 1.000000000000000000, 0.000000000000000000, 0.000000000000000000 ) ) ;
#170 = EDGE_CURVE ( 'NONE', #242, #190, #239, .T. ) ;
#171 =( NAMED_UNIT ( * ) SI_UNIT ( $, .STERADIAN. ) SOLID_ANGLE_UNIT ( ) );
#172 = FACE_OUTER_BOUND ( 'NONE', #63, .T. ) ;
#173 = PERSON_AND_ORGANIZATION_ROLE ( 'creator' ) ;
#174 = AXIS2_PLACEMENT_3D ( 'NONE', #116, #140, #95 ) ;
#175 = EDGE_LOOP ( 'NONE', ( #195, #93, #92, #78 ) ) ;
#176 = DIRECTION ( 'NONE',  ( -1.000000000000000000, -0.000000000000000000, -0.000000000000000000 ) ) ;
#177 = AXIS2_PLACEMENT_3D ( 'NONE', #243, #14, #119 ) ;
#178 = CALENDAR_DATE ( 2020, 23, 12 ) ;
#179 = CARTESIAN_POINT ( 'NONE',  ( -2.999999999999999556, 0.000000000000000000, 0.000000000000000000 ) ) ;
#180 = VERTEX_POINT ( 'NONE', #208 ) ;
#181 = ADVANCED_FACE ( 'NONE', ( #205 ), #155, .F. ) ;
#182 = CALENDAR_DATE ( 2020, 23, 12 ) ;
#183 = CARTESIAN_POINT ( 'NONE',  ( -1.614212418857619014, 0.000000000000000000, 6.349999999999999645 ) ) ;
#184 = DIRECTION ( 'NONE',  ( 0.000000000000000000, 0.000000000000000000, 1.000000000000000000 ) ) ;
#185 = VECTOR ( 'NONE', #284, 1000.000000000000000 ) ;
#186 = CARTESIAN_POINT ( 'NONE',  ( -1.614212418857619014, 0.000000000000000000, 0.000000000000000000 ) ) ;
#187 = CARTESIAN_POINT ( 'NONE',  ( 3.000000000000000888, 0.000000000000000000, 0.000000000000000000 ) ) ;
#188 = AXIS2_PLACEMENT_3D ( 'NONE', #179, #235, #184 ) ;
#189 = LOCAL_TIME ( 9, 23, 34.00000000000000000, #80 ) ;
#190 = VERTEX_POINT ( 'NONE', #33 ) ;
#191 = PRODUCT_DEFINITION ( 'UNKNOWN', '', #36, #165 ) ;
#192 = ORIENTED_EDGE ( 'NONE', *, *, #264, .T. ) ;
#193 = ORIENTED_EDGE ( 'NONE', *, *, #59, .F. ) ;
#194 = PERSON_AND_ORGANIZATION_ROLE ( 'design_owner' ) ;
#195 = ORIENTED_EDGE ( 'NONE', *, *, #322, .F. ) ;
#196 = DIRECTION ( 'NONE',  ( 0.000000000000000000, 0.000000000000000000, -1.000000000000000000 ) ) ;
#197 =( LENGTH_UNIT ( ) NAMED_UNIT ( * ) SI_UNIT ( .MILLI., .METRE. ) );
#198 = DIRECTION ( 'NONE',  ( -1.000000000000000000, -0.000000000000000000, -0.000000000000000000 ) ) ;
#199 = CARTESIAN_POINT ( 'NONE',  ( -1.500000000000000444, 0.000000000000000000, 0.000000000000000000 ) ) ;
#200 = APPROVAL_DATE_TIME ( #148, #296 ) ;
#201 = ADVANCED_FACE ( 'NONE', ( #56, #311 ), #214, .F. ) ;
#202 = VERTEX_POINT ( 'NONE', #81 ) ;
#203 = PERSON_AND_ORGANIZATION ( #37, #58 ) ;
#204 = APPROVAL_ROLE ( '' ) ;
#205 = FACE_OUTER_BOUND ( 'NONE', #49, .T. ) ;
#206 = CIRCLE ( 'NONE', #21, 6.349999999999999645 ) ;
#207 = CARTESIAN_POINT ( 'NONE',  ( 1.500000000000000888, 0.000000000000000000, 6.349999999999999645 ) ) ;
#208 = CARTESIAN_POINT ( 'NONE',  ( -2.999999999999999556, 7.776507174585692163E-16, -6.349999999999999645 ) ) ;
#209 = DIRECTION ( 'NONE',  ( -1.000000000000000000, -0.000000000000000000, -0.000000000000000000 ) ) ;
#210 = AXIS2_PLACEMENT_3D ( 'NONE', #283, #114, #136 ) ;
#211 =( GEOMETRIC_REPRESENTATION_CONTEXT ( 3 ) GLOBAL_UNCERTAINTY_ASSIGNED_CONTEXT ( ( #295 ) ) GLOBAL_UNIT_ASSIGNED_CONTEXT ( ( #197, #300, #171 ) ) REPRESENTATION_CONTEXT ( 'NONE', 'WORKASPACE' ) );
#212 = EDGE_CURVE ( 'NONE', #317, #242, #4, .T. ) ;
#213 = MANIFOLD_SOLID_BREP ( 'Ðý×', #315 ) ;
#214 = PLANE ( 'NONE',  #210 ) ;
#215 = PLANE ( 'NONE',  #177 ) ;
#216 = ADVANCED_BREP_SHAPE_REPRESENTATION ( 'Q-QZWP-R4-12.7-266-M', ( #213, #7 ), #211 ) ;
#217 = CC_DESIGN_APPROVAL ( #84, ( #302 ) ) ;
#218 = COORDINATED_UNIVERSAL_TIME_OFFSET ( 8, 0, .AHEAD. ) ;
#219 = DIRECTION ( 'NONE',  ( -1.000000000000000000, 0.000000000000000000, -0.000000000000000000 ) ) ;
#220 = ORIENTED_EDGE ( 'NONE', *, *, #159, .T. ) ;
#221 = CYLINDRICAL_SURFACE ( 'NONE', #273, 6.349999999999999645 ) ;
#222 = EDGE_CURVE ( 'NONE', #142, #317, #297, .T. ) ;
#223 = COORDINATED_UNIVERSAL_TIME_OFFSET ( 8, 0, .AHEAD. ) ;
#224 = CIRCLE ( 'NONE', #44, 6.349999999999999645 ) ;
#225 = VECTOR ( 'NONE', #8, 1000.000000000000000 ) ;
#226 = ORIENTED_EDGE ( 'NONE', *, *, #42, .F. ) ;
#227 = PERSON_AND_ORGANIZATION_ROLE ( 'classification_officer' ) ;
#228 = CARTESIAN_POINT ( 'NONE',  ( -1.614212418857619014, 7.776507174585692163E-16, -6.349999999999999645 ) ) ;
#229 = EDGE_LOOP ( 'NONE', ( #74, #117 ) ) ;
#230 = DATE_AND_TIME ( #178, #189 ) ;
#231 = PERSON_AND_ORGANIZATION ( #37, #58 ) ;
#232 = DIRECTION ( 'NONE',  ( -1.000000000000000000, -0.000000000000000000, -0.000000000000000000 ) ) ;
#233 = VECTOR ( 'NONE', #104, 1000.000000000000000 ) ;
#234 = AXIS2_PLACEMENT_3D ( 'NONE', #26, #132, #6 ) ;
#235 = DIRECTION ( 'NONE',  ( -1.000000000000000000, -0.000000000000000000, -0.000000000000000000 ) ) ;
#236 = CARTESIAN_POINT ( 'NONE',  ( -3.000000000000000000, 0.000000000000000000, 12.69999999999999929 ) ) ;
#237 = PRODUCT_RELATED_PRODUCT_CATEGORY ( 'detail', '', ( #285 ) ) ;
#238 = CARTESIAN_POINT ( 'NONE',  ( -1.614212418857619014, 0.000000000000000000, 12.69999999999999929 ) ) ;
#239 = CIRCLE ( 'NONE', #234, 6.349999999999999645 ) ;
#240 = CIRCLE ( 'NONE', #278, 12.69999999999999929 ) ;
#241 = ORIENTED_EDGE ( 'NONE', *, *, #257, .F. ) ;
#242 = VERTEX_POINT ( 'NONE', #207 ) ;
#243 = CARTESIAN_POINT ( 'NONE',  ( -1.500000000000000444, 6.349999999999999645, 0.000000000000000000 ) ) ;
#244 = DATE_AND_TIME ( #182, #51 ) ;
#245 = CARTESIAN_POINT ( 'NONE',  ( -3.000000000000000000, 0.000000000000000000, 0.000000000000000000 ) ) ;
#246 = CC_DESIGN_APPROVAL ( #296, ( #36 ) ) ;
#247 = DIRECTION ( 'NONE',  ( 0.000000000000000000, 0.000000000000000000, 1.000000000000000000 ) ) ;
#248 = DIRECTION ( 'NONE',  ( 0.000000000000000000, 0.000000000000000000, 1.000000000000000000 ) ) ;
#249 = PERSON_AND_ORGANIZATION_ROLE ( 'design_supplier' ) ;
#250 = EDGE_CURVE ( 'NONE', #190, #242, #65, .T. ) ;
#251 = VERTEX_POINT ( 'NONE', #236 ) ;
#252 = AXIS2_PLACEMENT_3D ( 'NONE', #199, #333, #196 ) ;
#253 = ORIENTED_EDGE ( 'NONE', *, *, #88, .T. ) ;
#254 = AXIS2_PLACEMENT_3D ( 'NONE', #85, #162, #265 ) ;
#255 = CARTESIAN_POINT ( 'NONE',  ( -1.500000000000000444, 0.000000000000000000, 6.349999999999999645 ) ) ;
#256 = ORIENTED_EDGE ( 'NONE', *, *, #250, .F. ) ;
#257 = EDGE_CURVE ( 'NONE', #13, #77, #34, .T. ) ;
#258 = MECHANICAL_CONTEXT ( 'NONE', #41, 'mechanical' ) ;
#259 = CARTESIAN_POINT ( 'NONE',  ( 3.000000000000000000, 1.555301434917138433E-15, -12.69999999999999929 ) ) ;
#260 = CARTESIAN_POINT ( 'NONE',  ( -1.614212418857619014, 0.000000000000000000, 6.349999999999999645 ) ) ;
#261 = CC_DESIGN_APPROVAL ( #39, ( #191 ) ) ;
#262 = DIRECTION ( 'NONE',  ( -1.000000000000000000, -0.000000000000000000, -0.000000000000000000 ) ) ;
#263 = DIRECTION ( 'NONE',  ( -1.000000000000000000, -0.000000000000000000, -0.000000000000000000 ) ) ;
#264 = EDGE_CURVE ( 'NONE', #61, #251, #266, .T. ) ;
#265 = DIRECTION ( 'NONE',  ( 0.000000000000000000, 0.000000000000000000, 1.000000000000000000 ) ) ;
#266 = CIRCLE ( 'NONE', #90, 12.69999999999999929 ) ;
#267 = ADVANCED_FACE ( 'NONE', ( #160 ), #316, .F. ) ;
#268 = ORIENTED_EDGE ( 'NONE', *, *, #88, .F. ) ;
#269 = ORIENTED_EDGE ( 'NONE', *, *, #275, .F. ) ;
#270 = APPLICATION_CONTEXT ( 'configuration controlled 3d designs of mechanical parts and assemblies' ) ;
#271 = EDGE_CURVE ( 'NONE', #317, #142, #206, .T. ) ;
#272 = PERSON_AND_ORGANIZATION ( #37, #58 ) ;
#273 = AXIS2_PLACEMENT_3D ( 'NONE', #303, #262, #318 ) ;
#274 = DIRECTION ( 'NONE',  ( 0.000000000000000000, 0.000000000000000000, 1.000000000000000000 ) ) ;
#275 = EDGE_CURVE ( 'NONE', #323, #251, #137, .T. ) ;
#276 = FACE_OUTER_BOUND ( 'NONE', #229, .T. ) ;
#277 = DIRECTION ( 'NONE',  ( -1.000000000000000000, 0.000000000000000000, -0.000000000000000000 ) ) ;
#278 = AXIS2_PLACEMENT_3D ( 'NONE', #245, #124, #274 ) ;
#279 = COORDINATED_UNIVERSAL_TIME_OFFSET ( 8, 0, .AHEAD. ) ;
#280 = CIRCLE ( 'NONE', #174, 12.69999999999999929 ) ;
#281 = ORIENTED_EDGE ( 'NONE', *, *, #264, .F. ) ;
#282 = EDGE_CURVE ( 'NONE', #323, #166, #280, .T. ) ;
#283 = CARTESIAN_POINT ( 'NONE',  ( -3.000000000000000000, 6.349999999999999645, 0.000000000000000000 ) ) ;
#284 = DIRECTION ( 'NONE',  ( -1.000000000000000000, -0.000000000000000000, -0.000000000000000000 ) ) ;
#285 = PRODUCT ( 'Q-QZWP-R4-12.7-266-M', 'Q-QZWP-R4-12.7-266-M', '', ( #258 ) ) ;
#286 = DIRECTION ( 'NONE',  ( 1.000000000000000000, 0.000000000000000000, 0.000000000000000000 ) ) ;
#287 = DIRECTION ( 'NONE',  ( 0.000000000000000000, 0.000000000000000000, 1.000000000000000000 ) ) ;
#288 = CARTESIAN_POINT ( 'NONE',  ( 3.000000000000000888, 0.000000000000000000, 6.349999999999999645 ) ) ;
#289 = VECTOR ( 'NONE', #198, 1000.000000000000000 ) ;
#290 = APPROVAL_PERSON_ORGANIZATION ( #50, #84, #331 ) ;
#291 = EDGE_LOOP ( 'NONE', ( #130, #192 ) ) ;
#292 = ORIENTED_EDGE ( 'NONE', *, *, #271, .T. ) ;
#293 = ORIENTED_EDGE ( 'NONE', *, *, #170, .F. ) ;
#294 = ORIENTED_EDGE ( 'NONE', *, *, #212, .F. ) ;
#295 = UNCERTAINTY_MEASURE_WITH_UNIT (LENGTH_MEASURE( 1.000000000000000082E-05 ), #197, 'distance_accuracy_value', 'NONE');
#296 = APPROVAL ( #103, 'UNSPECIFIED' ) ;
#297 = CIRCLE ( 'NONE', #40, 6.349999999999999645 ) ;
#298 = ORIENTED_EDGE ( 'NONE', *, *, #222, .F. ) ;
#299 = CC_DESIGN_PERSON_AND_ORGANIZATION_ASSIGNMENT ( #272, #120, ( #191 ) ) ;
#300 =( NAMED_UNIT ( * ) PLANE_ANGLE_UNIT ( ) SI_UNIT ( $, .RADIAN. ) );
#301 = DIRECTION ( 'NONE',  ( -0.000000000000000000, 0.000000000000000000, 1.000000000000000000 ) ) ;
#302 = SECURITY_CLASSIFICATION ( '', '', #53 ) ;
#303 = CARTESIAN_POINT ( 'NONE',  ( -1.614212418857619014, 0.000000000000000000, 0.000000000000000000 ) ) ;
#304 = DATE_TIME_ROLE ( 'creation_date' ) ;
#305 = ORIENTED_EDGE ( 'NONE', *, *, #42, .T. ) ;
#306 = EDGE_LOOP ( 'NONE', ( #226, #127, #308, #11 ) ) ;
#307 = CARTESIAN_POINT ( 'NONE',  ( -2.999999999999999556, 0.000000000000000000, 0.000000000000000000 ) ) ;
#308 = ORIENTED_EDGE ( 'NONE', *, *, #212, .T. ) ;
#309 = DATE_AND_TIME ( #45, #109 ) ;
#310 = APPROVAL_DATE_TIME ( #244, #39 ) ;
#311 = FACE_OUTER_BOUND ( 'NONE', #291, .T. ) ;
#312 = CARTESIAN_POINT ( 'NONE',  ( 1.500000000000000888, 0.000000000000000000, 0.000000000000000000 ) ) ;
#313 = ADVANCED_FACE ( 'NONE', ( #94 ), #215, .F. ) ;
#314 = CARTESIAN_POINT ( 'NONE',  ( -1.614212418857619014, 0.000000000000000000, 0.000000000000000000 ) ) ;
#315 = CLOSED_SHELL ( 'NONE', ( #102, #267, #181, #30, #131, #123, #201, #319, #67, #313 ) ) ;
#316 = CYLINDRICAL_SURFACE ( 'NONE', #254, 6.349999999999999645 ) ;
#317 = VERTEX_POINT ( 'NONE', #288 ) ;
#318 = DIRECTION ( 'NONE',  ( 0.000000000000000000, 0.000000000000000000, 1.000000000000000000 ) ) ;
#319 = ADVANCED_FACE ( 'NONE', ( #320 ), #38, .T. ) ;
#320 = FACE_OUTER_BOUND ( 'NONE', #27, .T. ) ;
#321 = ORIENTED_EDGE ( 'NONE', *, *, #275, .T. ) ;
#322 = EDGE_CURVE ( 'NONE', #202, #180, #32, .T. ) ;
#323 = VERTEX_POINT ( 'NONE', #28 ) ;
#324 = EDGE_LOOP ( 'NONE', ( #150, #268 ) ) ;
#325 = ORIENTED_EDGE ( 'NONE', *, *, #159, .F. ) ;
#326 = CC_DESIGN_PERSON_AND_ORGANIZATION_ASSIGNMENT ( #146, #173, ( #36 ) ) ;
#327 = CARTESIAN_POINT ( 'NONE',  ( -2.999999999999999556, 0.000000000000000000, 6.349999999999999645 ) ) ;
#328 = PLANE ( 'NONE',  #15 ) ;
#329 = CIRCLE ( 'NONE', #188, 6.349999999999999645 ) ;
#330 = LINE ( 'NONE', #18, #289 ) ;
#331 = APPROVAL_ROLE ( '' ) ;
#332 = LOCAL_TIME ( 9, 23, 34.00000000000000000, #223 ) ;
#333 = DIRECTION ( 'NONE',  ( 1.000000000000000000, 0.000000000000000000, 0.000000000000000000 ) ) ;
#334 = CC_DESIGN_PERSON_AND_ORGANIZATION_ASSIGNMENT ( #105, #249, ( #36 ) ) ;
#335 = FACE_OUTER_BOUND ( 'NONE', #60, .T. ) ;
ENDSEC;
END-ISO-10303-21;
